stuck in the middle solo

(/) Slide Up  (\) Slide Down  (h) Hammer On  (p) Pull Off  (b) Bend (r) Release (v) Vibrato
E|-------------------------------------8---------------
B|--------6--8--6-----6--9\8--6--8/10-----10p8---------
G|--7--------------7----------------------------10--7--
D|-----5-----------------------------------------------
A|-----------------------------------------------------
E|-----------------------------------------------------



E|-------------------------------------8------------10--
B|--------6--8--6-----6--9\8--6--8/10-----10p8----------
G|--7--------------7----------------------------10------
D|-----5------------------------------------------------
A|------------------------------------------------------
E|------------------------------------------------------



E|-------------------------------------------
B|------8h10--10p8------8--9p8------8--------
G|--10--------------10----------10--------7--
D|-------------------------------------------
A|-------------------------------------------
E|-------------------------------------------
http://www.guitartabcreator.com
Guitar Tab Creator is intended to store guitar tab created through the tool. It currently does not support in-line text editing. Any text you place in here will be lost. If you need to comment on your tab, please use the "Tab Notes" section located below.