Pride and Joy Solo

(/) Slide Up  (\) Slide Down  (h) Hammer On  (p) Pull Off  (b) Bend (r) Release (v) Vibrato


E|-------------12------12------------------------------|-------------12-----------------------12--
B|---------12------15------15--12----------------------|---------12------15p12--14b15r14----------
G|--14b16--------------------------14b14--12-------13--|--14b16---------------------------12------
D|--------------------------------------------14v------|------------------------------------------
A|-----------------------------------------------------|------------------------------------------
E|-----------------------------------------------------|------------------------------------------



E|----------------------------------|----------------------------|------------------------12-----
B|----------------------------------|----------------------------|-------------------------------
G|----------------------------------|--16--15--14--14p12---------|--14p12--14p12------13---------
D|------14--16--14--17--14--16--14--|---------------------12h14--|----------------14-------------
A|--16------------------------------|----------------------------|-------------------------------
E|----------------------------------|----------------------------|-------------------------------



E|--12----------------------------|-------------14--14--16--14------|------12--12--14--12------
B|------15--12--------------------|--12--12/16------------------16--|--14------------------14--
G|--------------14b16r14--12------|---------------------------------|--------------------------
D|----------------------------14--|---------------------------------|--------------------------
A|--------------------------------|---------------------------------|--------------------------
E|--------------------------------|---------------------------------|--------------------------



E|--12------12------------------|--
B|------15------14--13--12--11--|--
G|--------------------------12--|--
D|------------------------------|--
A|------------------------------|--
E|------------------------------|--
http://www.guitartabcreator.com
Guitar Tab Creator is intended to store guitar tab created through the tool. It currently does not support in-line text editing. Any text you place in here will be lost. If you need to comment on your tab, please use the "Tab Notes" section located below.