Blue Sky intro, riff1, riff2, & solo

(/) Slide Up  (\) Slide Down  (h) Hammer On  (p) Pull Off  (b) Bend (r) Release (v) Vibrato
t: Q Q Q Q Q Q Q Q Q Q Q Q Q Q
E|--------------------------------------------
B|--------------------------------------------
G|-----------------------6--7--9--9--6--------
D|--------6--7--9--7--9-----------------9-----
A|--7--9-----------------------------------7--
E|--------------------------------------------


t: Q Q Q Q Q Q Q Q Q
E|-----------------------------
B|--5--------------------------
G|-----6--4--6--4--6-----------
D|--------------------4--6-----
A|--------------------------7--
E|-----------------------------



E|----------------------------------------------------9--12--14--12b14--
B|-------------------------------------10--9--10--12--------------------
G|------------------9-----------9--11-----------------------------------
D|-----------9--11-----7--9/11------------------------------------------
A|--7--9/11-------------------------------------------------------------
E|----------------------------------------------------------------------



E|--16p14\12--12-------------17p16p14\12--12h14--16p14p12h14------12------------------------
B|----------------14--14p12-----------------------------------14------14--12--14p12---------
G|-----------------------------------------------------------------------------------13h14--
D|------------------------------------------------------------------------------------------
A|------------------------------------------------------------------------------------------
E|------------------------------------------------------------------------------------------
http://www.guitartabcreator.com
Guitar Tab Creator is intended to store guitar tab created through the tool. It currently does not support in-line text editing. Any text you place in here will be lost. If you need to comment on your tab, please use the "Tab Notes" section located below.