O Holy Night - TSO

(/) Slide Up  (\) Slide Down  (h) Hammer On  (p) Pull Off  (b) Bend (r) Release (v) Vibrato
E|-------------------------------15--17---------------------------------
B|--------17b18--17--15--17--18----------17--18p17--15--17--20----------
G|--------------------------------------------------------------17--17--
D|----------------------------------------------------------------------
A|----------------------------------------------------------------------
E|--13\-----------------------------------------------------------------



E|----------------------------------------------17--18--19--20--
B|----------------------17------18------20----------------------
G|------17------19----------------------------------------------
D|--17------17------17------17------17------17------------------
A|--------------------------------------------------------------
E|--------------------------------------------------------------



E|--18--17--18--20p18--17------17------------------------------------17--18--19--20--
B|-------------------------20------18--20--17h18p17----------18--20------------------
G|---------------------------------------------------19--17--------------------------
D|-----------------------------------------------------------------------------------
A|-----------------------------------------------------------------------------------
E|-----------------------------------------------------------------------------------



E|--17--18--17h18p17--15--------------------------------------------------------
B|------------------------18--17--15--------------------------------------------
G|------------------------------------17--15--14--14--15--17--12--14b15r14------
D|--------------------------------------------------------------------------15--
A|------------------------------------------------------------------------------
E|------------------------------------------------------------------------------



E|----------------------------------------------------------------------------------------
B|----------------------15--15------15--18--18p17-----------------------------------------
G|--14--14--14--17--17----------15-----------------17--14----------14--15b17--14----------
D|---------------------------------------------------------17--15-----------------17--15--
A|----------------------------------------------------------------------------------------
E|----------------------------------------------------------------------------------------



E|------------------------------------------------------------------10-10----10-12b13r12-
B|---------------------10-11-12-13-10b12r10----------10-10-10-13-13-------11-------------
G|---------------10-12----------------------12----10-------------------------------------
D|---------10-12-------------------------------12----------------------------------------
A|------12-------------------------------------------------------------------------------
E|--/13----------------------------------------------------------------------------------
http://www.guitartabcreator.com
Guitar Tab Creator is intended to store guitar tab created through the tool. It currently does not support in-line text editing. Any text you place in here will be lost. If you need to comment on your tab, please use the "Tab Notes" section located below.