Gentlemandolin - Jake Shimabukuro

(/) Slide Up  (\) Slide Down  (h) Hammer On  (p) Pull Off  (b) Bend (r) Release (v) Vibrato
E|--5--7--9--9--10--5--7--7--5--7--9--
B|--3--3--5--7--7---3--3--5--5--5--5--
G|--2--4--2--4--4---2--4--2--2--2--2--
D|--4--5--0--0--0---4--5--0--0--0--0--
A|------------------------------------
E|------------------------------------



E|--10--9--9--7--5--3--7--5--5--3--2--3--
B|--7---7--7--7--7--7--5--3--2--3--3--5--
G|--2---2--0--0--0--0--6--4--4--2--2--4--
D|--0---0--0--0--0--0--0--2--2--0--0--0--
A|---------------------------------------
E|---------------------------------------



E|--10--9--9--7--5--3-----------7--7--5--5--10--10--
B|--7---7--7--7--7--7--------5-----5--3--2--8---7---
G|--2---2--0--0--0--0-----6--------6--4--4--9---9---
D|--0---0--0--0--0--0--0-----------0--2--2--0---0---
A|--------------------------------------------------
E|--------------------------------------------------
http://www.guitartabcreator.com
Guitar Tab Creator is intended to store guitar tab created through the tool. It currently does not support in-line text editing. Any text you place in here will be lost. If you need to comment on your tab, please use the "Tab Notes" section located below.