Canon in D

(/) Slide Up  (\) Slide Down  (h) Hammer On  (p) Pull Off  (b) Bend (r) Release (v) Vibrato
E|-17-14-15-17-14-15-17-------------12-14-15-14-------14-------------------------------
B|-------------------------12-14-15-------------15-17-------------12-------------------
G|----------------------14----------------------------------12-14----14-12-14----12-14-
D|-------------------------------------------------------16-------------------16-------
A|-------------------------------------------------------------------------------------
E|-------------------------------------------------------------------------------------



E|-------------------------------------------------------------------------12-14-15-17-
B|----12----------------------------------12----12----12-14-15----12-14-15-------------
G|-12----14-12----------------------12-14----12----14----------14----------------------
D|-------------16-14-16-14-12-14-16----------------------------------------------------
A|-------------------------------------------------------------------------------------
E|-------------------------------------------------------------------------------------



E|-14----12-14-12----12-------12-14-12-------------------------------------------------
B|----15----------15----14-15----------15-14-15----14-15----------------------15-14-15-
G|----------------------------------------------16----------------12-------------------
D|-------------------------------------------------------12-14-16----16-14-16----------
A|-------------------------------------------------------------------------------------
E|-------------------------------------------------------------------------------------



E|-------------------------------------------------------------------------------------
B|----15-14-12----------------------12-14-15----15-14-15-14-12-14-15-17-15-14-15-12-14-
G|-16----------14-12-14-12----12-14----------16----------------------------------------
D|-------------------------16----------------------------------------------------------
A|-------------------------------------------------------------------------------------
E|-------------------------------------------------------------------------------------
http://www.guitartabcreator.com
Guitar Tab Creator is intended to store guitar tab created through the tool. It currently does not support in-line text editing. Any text you place in here will be lost. If you need to comment on your tab, please use the "Tab Notes" section located below.