Cat (DGDGAD)

(/) Slide Up  (\) Slide Down  (h) Hammer On  (p) Pull Off  (b) Bend (r) Release (v) Vibrato
E|--5-----------------5-----------------5-----0-----3-----5-----0-----------5--------------
B|--------5-----8-----------5--------------3-----3-----3-----3-----3-----3--------5-----8--
G|-----5-----5-----5-----5-----5-----5--0-----------------------------3-----5--5-----5-----
D|--0-----------------------------8-----0--------------------------------------------------
A|--0-----------------------------------3-----------------------------------2--------------
E|--------------------------------------1-----------------------------------0--------------



E|-----5-----------------5-----------3-----5-----------------
B|-----------5-----------------5-----------------5-----------
G|--5-----5-----5-----5--0--5-----5-----5--0--5-----5--3--5--
D|-----------------8-----------------------------------------
A|-----------------------5-----------------5-----------------
E|-----------------------3-----------------3-----------------



E|--5-----------3--------
B|--------5-----------3--
G|--0--5-----5-----3--0--
D|-----------------------
A|--5-----------5-----5--
E|--3-----------------3--



E|--0--------------3-----
B|--3--------1--3-----5--
G|--2-----3--0--------0--
D|--3--0-----0--------3--
A|--0--------0-----------
E|--------------------1--
http://www.guitartabcreator.com
Guitar Tab Creator is intended to store guitar tab created through the tool. It currently does not support in-line text editing. Any text you place in here will be lost. If you need to comment on your tab, please use the "Tab Notes" section located below.