Hard Time Killing Floor

(/) Slide Up  (\) Slide Down  (h) Hammer On  (p) Pull Off  (b) Bend (r) Release (v) Vibrato

E|---------------------------------------------------0-----------0-----------0-----------0--
B|----------------------------3-------------------------------------------------------------
G|------------------------------------------------------------------2-----------2-----------
D|--3b4--0--2--0-----------0-----0-----------0--3b4-----0--2-----------0--3--------0--------
A|----------------3--0--2--------------0--3-------------------3-----------------------------
E|----------------------------0-----0-------------------------------------------------0-----



E|-----------------0-----------------0----------0-----------------------0--------------------------
B|--------------0-----------------0----------------------------------------------------------------
G|----------------------------------------------------2p1------/4p2-----------2p1------/4p2--------
D|-------------------------------------------0-----0----------0------0-----0----------0------0-----
A|--------0--3--------0--3--0-----------0h3----------------------------------------0------------0--
E|--0--3-----------------------5----------------3----------0------------3--------------------------



E|--------------0-----0-----0--0--0-----------------0-----------------0----------0-------------------
B|--0--0--2--3-----3-----3-----3--3--------------0-----------------0---------------------------------
G|-------------------------------------------------------------------------------------2p1-----------
D|--------------------0-------------------------------------------------------0-----0----------0-----
A|-----------------------------------------0--3--------0--3--0-----------0h3-------------------------
E|--------------0--------------0-----0--3-----------------------5----------------3----------0--------



E|--------------------------------------------------------------------------------------------
B|---------------0-----0-----0-----0-----0-----0---------------------0-----0------------------
G|--0/4p2-----------2-----------2-----------2-----------0/4p2-----------2-----------0/4p2-----
D|---------0--------0-----------0-----------0--------0---------0--------0--------0---------0--
A|------------------------0-----------------------0---------------------------0---------------
E|------------3-----------------------3---------------------------3---------------------------



E|--0---------------------------0--------------0------------------------------0--
B|------------------------------------------0------------------------------------
G|--------2p1--------------------------------------------------------------------
D|-----0----------------0--3b4-----0--2--0--------------0--3b4--2-------0--------
A|----------------0--3----------------------------0--3-------------3b4-----------
E|--3----------0-----------------------------------------------------------0-----



E|-----------------0-----------------0----------0--------------------------
B|--------------0-----------------0----------------------------------------
G|----------------------------------------------------2p1--------0/4p2-----
D|-------------------------------------------0-----0----------0---------0--
A|--------0--3--------0--3--0-----------0h3--------------------------------
E|--0--3-----------------------5----------------3----------0---------------



E|----------------------------------------------------------
B|-----0-----0---------------------0-----0------------------
G|--------2-----------0/4p2-----------2-----------0/4p2-----
D|--------0--------0---------0--------0--------0---------0--
A|--------------0---------------------------0---------------
E|--3---------------------------3---------------------------



E|------------------------------0-------------
B|-----0-----0--------------------------------
G|--------2-----------0/4p2-----------2p1-----
D|--------0--------0---------0-----0----------
A|--------------0-----------------------------
E|--3---------------------------3----------0--



E|--0--0--2--3--4--2p0----------------0--0--3p2p0-----0-----
B|----------------------2--0--2--0h2---------------2--------
G|--1--1--2--3----------------------------------------------
D|-------------------------------------------------------0--
A|----------------------------------------------------------
E|---------------------------------------0------------------
http://www.guitartabcreator.com
Guitar Tab Creator is intended to store guitar tab created through the tool. It currently does not support in-line text editing. Any text you place in here will be lost. If you need to comment on your tab, please use the "Tab Notes" section located below.