solo opw 710

(/) Slide Up  (\) Slide Down  (h) Hammer On  (p) Pull Off  (b) Bend (r) Release (v) Vibrato


E|-----------------------------------------------------------------------
B|-----------------4--4--4--4--5--4--------------------4--4--4--5--4-----
G|--7--5--5--5--7--------------------7--7--5--5--5--7-----------------7--
D|-----------------------------------------------------------------------
A|-----------------------------------------------------------------------
E|-----------------------------------------------------------------------



E|----------------------------------------------------------------------------------------------
B|--10--10--10--11------10--10--10--11--------------10--11--11--13----------15--13--13------13--
G|------------------10------------------10--10--12------------------10--10--------------15------
D|----------------------------------------------------------------------------------------------
A|----------------------------------------------------------------------------------------------
E|----------------------------------------------------------------------------------------------
http://www.guitartabcreator.com
Guitar Tab Creator is intended to store guitar tab created through the tool. It currently does not support in-line text editing. Any text you place in here will be lost. If you need to comment on your tab, please use the "Tab Notes" section located below.