groot is Uw trouw - Kees Kraayenoord intro

(/) Slide Up  (\) Slide Down  (h) Hammer On  (p) Pull Off  (b) Bend (r) Release (v) Vibrato


E|-----------------------------------------------------------------------------
B|-----------------------------------------------------------------------------
G|-----------------------------------------------------------------------------
D|-----------------------------------------9--11--9----------------------------
A|--9--9--9--9----------10--10--10--10--9------------12--10--9------9--11--12--
E|--------------12--12------------------------------------------12-------------



E|-------------------------------------------------------------------------------
B|-------------------------------------------------------------------------------
G|-------------------------------------------------------------------------------
D|------9--11--12--11--9--------------------9--11--9--12-------------------------
A|--12--------------------12--10--9--9--------------------12--12--9--10----------
E|--------------------------------------12-------------------------------12--10--
http://www.guitartabcreator.com
Guitar Tab Creator is intended to store guitar tab created through the tool. It currently does not support in-line text editing. Any text you place in here will be lost. If you need to comment on your tab, please use the "Tab Notes" section located below.