the fogiveness

(/) Slide Up  (\) Slide Down  (h) Hammer On  (p) Pull Off  (b) Bend (r) Release (v) Vibrato
E|------------------------------------------------------------------------------
B|------------------------------------------------------------------------------
G|-12------------------------------------------------8--------8-----------------
D|----10--------------------10-------------------------8--------8---------------
A|-------11--------------------10-10/11-11/13-11-10------8-10-----6-8/10-6-5/11-
E|----------10-13p10-11p10------------------------------------------------------



E|--------------------------------------------------------------------------------------------
B|--------------------------------------------------------------------------------------------
G|-----------------------------------------------------------------------------------12-------
D|--------------------------------------------------------------------------------------10-12b
A|-11b10-10----10----10--------------------------------------------------13-13-10-10----------
E|----------13----11----10-10/13-11--13-13-11-11-10-10-13-13-11-11-10-10----------------------



E|-----------------------------------------------------------------------------------------------
B|-----------------------------------------------------------------------------------------------
G|-------10b12-12-12--------------------------------------------------------------------12-------
D|-------------------10-10-12-12--------------------------------------------12----12-10----10b12-
A|-13-10-------------------------10-12-13-10-13----b13----13----13-10-13-10----10----------------
E|-----------------------------------------------------10----10----------------------------------



E|----------------------------------------------
B|----------------------------------------------
G|-------------------------------------------12-
D|-10----------------------------------12-10----
A|----10-11-13----------------13-12-10----------
E|-------------10-11-13-11-10-------------------
http://www.guitartabcreator.com
Guitar Tab Creator is intended to store guitar tab created through the tool. It currently does not support in-line text editing. Any text you place in here will be lost. If you need to comment on your tab, please use the "Tab Notes" section located below.