Gangnam Style Tapping

Gangnam Style Verse "Tapping Version"

(h) Hammer On (p) Pull Off


E|-------------|
B|-------2-2-2-|
G|-------2-2-2-|
D|-4-4-4-2-2-2-|
A|-4-4-4-------|
E|-2-2-2-------|


"Tapping Version"

*Play 3 Times*
E|---------------------------------------------------------------------------------|
B|---------------------------------------------------------------------------------|
G|-16p4h16p4h16p4h16p4h16p4h16p4h19p4h21p4h16p4h16p4h16p4h16p4h16p4h15p4h14p4h13p4-|
D|---------------------------------------------------------------------------------|
A|---------------------------------------------------------------------------------|
E|---------------------------------------------------------------------------------|



E|---------------------------------------|
B|---------------------------------------|
G|-16p4h16p4h16p4h16p4h16p4h16p4h19p4h21-|
D|---------------------------------------|
A|---------------------------------------|
E|---------------------------------------|


"Regular Version"

*Play 3 Times*
E|------------------------------------------------|
B|-12-12-12-12-12-12-15-17-12-12-12-12-12-11-10-9-|
G|------------------------------------------------|
D|------------------------------------------------|
A|------------------------------------------------|
E|------------------------------------------------|



E|-------------------------|
B|-12-12-12-12-12-12-15-17-|
G|-------------------------|
D|-------------------------|
A|-------------------------|
E|-------------------------|
Guitar Tab Creator is intended to store guitar tab created through the tool. It currently does not support in-line text editing. Any text you place in here will be lost. If you need to comment on your tab, please use the "Tab Notes" section located below.