Idea 1

(/) Slide Up  (\) Slide Down  (h) Hammer On  (p) Pull Off  (b) Bend (r) Release (v) Vibrato
E|--14--11--12--11--9---11--12--11--9---11--12--11--7--11--12--11--
B|--12--9---10--10--10--9---10--9---10--9---10--9---8--9---10--9---
G|-----------------------------------------------------------------
D|-----------------------------------------------------------------
A|-----------------------------------------------------------------
E|-----------------------------------------------------------------



E|--14--11--12--11--9---11--12--11--8--11--12--11--7--
B|--12--9---10--9---10--9---10--9---9--9---10--9---8--
G|----------------------------------------------------
D|----------------------------------------------------
A|----------------------------------------------------
E|----------------------------------------------------



E|--------------------2-----------------
B|--3--1--3--1--3--1-----3-----2--------
G|--4--2--4--2--4--2--------4-----2-----
D|--5--3--5--3--5--3-----------------2--
A|--5--3--5--3--5--3--------------------
E|--3--1--3--1--3--1--------------------



E|------------------------0--1--
B|--5------5--5--5--5-----0--3--
G|--5------5--5--5--5--2--3--1--
D|--5------5--5--5--5--3--3--3--
A|--3------2-----------3--3--1--
E|------------5--4--3--1--0-----



E|-----------------------------------
B|-----------------------------------
G|--------------------------0--0--0--
D|--------------------2--0--1--1--1--
A|-----------0--2--3--------3--3--3--
E|--0--2--3--------------------------



E|--------------------------------------
B|--------------------------------------
G|--------------------0h14h16p12--12\0--
D|-----------0h14h16--------------------
A|--0h14h16-----------------------------
E|--------------------------------------



E|------------------------------------------------------------------
B|------------------------------------------------------------------
G|----------------------------------------------12--14--12----------
D|--12--11--11--11--11--11--11--11--14--12--14--12--14--12--14--12--
A|------0---12--0---12--0---12--0---14--12--14--------------14--12--
E|------------------------------------------------------------------



E|--------
B|--7--8--
G|--6--7--
D|--7--8--
A|--5--6--
E|--------



E|--0-----0-----0--8--9--8--
B|--0--8--0--8--0--x--x--x--
G|--6--6--6--6--6--6--6--6--
D|--7--6--7--6--7--6--7--6--
A|--7--6--7--6--7--6--0--6--
E|--5-----5-----5-----------



E|------------------|--15----------
B|--------------17--|------16------
G|----------17------|----------17--
D|------15----------|--------------
A|--17--------------|--------------
E|------------------|--------------
http://www.guitartabcreator.com
Guitar Tab Creator is intended to store guitar tab created through the tool. It currently does not support in-line text editing. Any text you place in here will be lost. If you need to comment on your tab, please use the "Tab Notes" section located below.