The Presets: This Boys in Love

(/) Slide Up  (\) Slide Down  (h) Hammer On  (p) Pull Off  (b) Bend (r) Release (v) Vibrato

E|-----------------------------------------|-
B|-----------------------------------------|-
G|-----------------------------------------|-
D|-------1h3-------1h3-------1h3-------1h3-|-
A|-----------------------------------------|-
E|-1-1-1-----1-1-1-----1-1-1-----1-1-1-----|-



E|---------------------------------------------------------------------------------|-
B|---------------------------------------------------------------------------------|-
G|---------------------------------------------------------------------------------|-
D|-------1h3-------1h3-------1h3-------1h3-------1h3-------1h3-3-3-3-1h3-3-3-3-1h3-|-
A|---------------------1-1-1-----1-1-1-----1-1-1-----1-1-1-------------------------|-
E|-4-4-4-----4-4-4-----------------------------------------------------------------|-



E|--
B|--
G|--
D|--
A|--
E|--
http://www.guitartabcreator.com
Guitar Tab Creator is intended to store guitar tab created through the tool. It currently does not support in-line text editing. Any text you place in here will be lost. If you need to comment on your tab, please use the "Tab Notes" section located below.