Skyrim Theme song: Drob B

(/) Slide Up  (\) Slide Down  (h) Hammer On  (p) Pull Off  (b) Bend (r) Release (v) Vibrato


E|-------------------------------------------------------------------------------------------
B|-------------------------------------------------------------------------------------------
G|---------------------------2-------------------------------------------2--4----4--2--6--4--
D|----------------2--4----4-----2-----------------------------2--4----4----------------------
A|--2--4--5----5---------------------5--4--2----2--4--5----5---------------------------------
E|-------------------------------------------------------------------------------------------



E|------------------------------------------------------------------------------------------------
B|------------------------------------------------------------------------------------------------
G|------------------------------------------------------------------------------------------------
D|------------------------------------------------------------------------------------------------
A|--2--4--5--4--2--0---------------------------5--4--5----5--4--5----5--4--7--5--4--2----2--0--2--
E|--------------------4--2--0----2--0--4--2-------------------------------------------------------



E|-------------------------------------------------------------------------------------------
B|-------------------------------------------------------------------------------------------
G|-------------------------------------------------------------------------------------------
D|--------------------------------------------1--3-------------------------------------------
A|--2--0--2----2--0--4--5--0--2----5--4--5------------4--7--5--4--2----2--0--2----2--0--2----
E|-------------------------------------------------------------------------------------------



E|--------------------
B|--------------------
G|--------------------
D|--------------------
A|--2--0--4--5--0--2--
E|--------------------
http://www.guitartabcreator.com
Guitar Tab Creator is intended to store guitar tab created through the tool. It currently does not support in-line text editing. Any text you place in here will be lost. If you need to comment on your tab, please use the "Tab Notes" section located below.