Handlebars: Flobots

(/) Slide Up  (\) Slide Down  (h) Hammer On  (p) Pull Off  (b) Bend (r) Release (v) Vibrato


E|--------5----------------------------------------------------------6-------6--10--6-----------8--5--
B|-----6-----6----------5----------------6-------5--8--5----------6-------6--------------6--10--------
G|--7----------------5-----5----------7-------5----------------7--------------------------------------
D|----------------7----------------8------------------------8-----------------------------------------
A|------------------------------8---------------------------------------------------------------------
E|----------------------------------------------------------------------------------------------------



E|--------5-----
B|--5--8--------
G|--------------
D|-----------7--
A|--------------
E|--------------
http://www.guitartabcreator.com
Guitar Tab Creator is intended to store guitar tab created through the tool. It currently does not support in-line text editing. Any text you place in here will be lost. If you need to comment on your tab, please use the "Tab Notes" section located below.