He's A Pirate

He's A Pirate!!!

HAPPY BIRTHDAY SEAN-LUC!!!! :D

Intro (0.00-0.09)
E|--------------|--------------|---|
B|--------------|--------------|---| let ring
G|--------------|--------------|-7-|
D|--------------|--------------|-7-|
A|-5-55-55-5555-|-5-55-55-5555-|-5-|
E|--------------|--------------|---|
-Note: 5’s on the A-string are muted, except the one in the chord.


Main Thang (2x) (0.10-0.37)
|------------------------------------|
|-------------5-6-6-6-8-5-5----------|
|--2\5--7-7-7---------------7-5-5h7--|
|------------------------------------|
|------------------------------------|
|------------------------------------|

|--------------------------------|
|------------5-6-6-6-8-5-5-------|
|----5-7-7-7---------------7-5-7-|
|--7-----------------------------|
|--------------------------------|
|--------------------------------|
| FIRST TIME | SECOND TIME |
|--------------------5-6-6-5---5---|------------5---|----------------|----------------|
|------------6-8-8-8---------8-----|----5-6-6-8-----|----6-5-5-6---5-|----6-5-5-------|
|----5-7-7-7---------------------7-|--7-----------7-|--7---------7---|--7-------7-5-7-|
|--7-------------------------------|----------------|----------------|----------------|
|----------------------------------|----------------|----------------|----------------|
|----------------------------------|----------------|----------------|----------------|




Interlude (0.37-0.43)
|---------------------1--------6------------------|
|---4/5-6-6-8-10---///--3--------6----------------|
|-7-----------------------2----------------2/9-10-|
|----------------------------------8-------2/7-7--|
|------------------------------------------0/0-0--|
|-------------------------------------------------|

That One Part (0.43-0.50)
|-----------------|-------------|-----------------|------------|
|--10-10-10-11-10-|--8-8-8-8-10-|--10-10-10-11-10-|--5/8-6-5-3-|
|--10-10-10-10-10-|--9-9-9-9-9--|--10-10-10-10-10-|--6/9-7-5-2-|
|-----------------|-------------|-----------------|------------|
|-----------------|-------------|-----------------|------------|
|-----------------|-------------|-----------------|------------|

Main Theme (0.50-1.04)
|-------------------------------|------------------------------------|
|---------8-10-8---------8-10-8-|-----8-10-8h10p8--------------------|
|--7-9-10--------10-9-10--------|--10-------------10-9-10-9-7-9----7-|
|-------------------------------|-------------------------------10---|
|-------------------------------|------------------------------------|
|-------------------------------|------------------------------------|

|-------------------------------|---------------------------------------|
|--------------8----8-10-8------|---------8-10-11---8------8------------|
|--7-9-10-9-10---10--------10-7-|--7-9-10---------7---10-----9-7---9----|
|-------------------------------|------------------------------------10-|
|-------------------------------|---------------------------------------|
|-------------------------------|---------------------------------------|

EPIC!! (1.04-1.16)
|---------------------------------------------|
|--10---11----10-10-10-10-8---8---6---5-6-5-3-|
|--10---10----10-10-10-10---------5---5-5-5-2-| X2
|---------------------------------------------|
|---------------------------------------------|
|---------------------------------------------|

RAWR!!!!!! (1.16-1.35)
|------------|------------|-----------------------|--------------|
|---------10-|---------11-|---------10-10-13-10-8-|--8-6-5-6-5-3-|
|--7-9-10-10-|--7-9-10-10-|--7-9-10-10-10-10-10---|----5-5-5-5-2-|
|------------|------------|-----------------------|--------------| X2
|------------|------------|-----------------------|--------------|
|------------|------------|-----------------------|--------------|

From Shea :)
Guitar Tab Creator is intended to store guitar tab created through the tool. It currently does not support in-line text editing. Any text you place in here will be lost. If you need to comment on your tab, please use the "Tab Notes" section located below.