simple breakdown

(/) Slide Up  (\) Slide Down  (h) Hammer On  (p) Pull Off  (b) Bend (r) Release (v) Vibrato


E|-------------------------------------------------------------------------------------
B|-------------------------------------------------------------------------------------
G|-------------------------------------------------------------------------------------
D|-------------------------------------------------------------------------------------
A|--0--0--0--12--0--0--3--0--0--0--0--0--2--3--0--0--0--12--0--0--3--0--0--0--0--3--5--
E|--0--0--0--12--0--0--3--0--0--0--0--0--2--3--0--0--0--12--0--0--3--0--0--0--0--3--5--



E|-----------------------------------------------------------------------------------------
B|-----------------------------------------------------------------------------------------
G|-----------------------------------------------------------------------------------------
D|---------------------------------------------10--10--10--10--10--------------------------
A|--0--0--0--12--0--0--3--0--0--0--0--0--5--7--8---8---8---8---8---5-----------------------
E|--0--0--0--12--0--0--3--0--0--0--0--0--5--7--8---8---8---8---8---5--0--2--3--5--3--2--0--
http://www.guitartabcreator.com
Guitar Tab Creator is intended to store guitar tab created through the tool. It currently does not support in-line text editing. Any text you place in here will be lost. If you need to comment on your tab, please use the "Tab Notes" section located below.