Paramore Monster

(/) Slide Up  (\) Slide Down  (h) Hammer On  (p) Pull Off  (b) Bend (r) Release (v) Vibrato


E|--------------------------------------------------------------------------------------------------
B|--5--5--5-----------------3--3--3-----------------------------------------------------------------
G|-----------4--4--4--4--4-----------2--2--2--2--2-----------4--4--4-----------------4--4--4--------
D|--------------------------------------------------5--5--5-----------5--5--5--5--5-----------5--5--
A|--------------------------------------------------------------------------------------------------
E|--------------------------------------------------------------------------------------------------



E|-------------------------------------------------------------------------------------------------
B|--5--5--5-----------------7--7--7----------------------7-----8-----7--10--10--10--8--8--8--8--8--
G|-----------4--4--4--4--4-----------7--7--7--7--7--4/5-----5-----5--------------------------------
D|-------------------------------------------------------------------------------------------------
A|-------------------------------------------------------------------------------------------------
E|-------------------------------------------------------------------------------------------------



E|---------------------------------------------------------------------------------------------
B|--13--13--13--12--12--12----------15--15--15--12--12--12-------------------------------------
G|--------------------------12--12--------------------------12--12--9--9--9--12--12--12--9--9--
D|---------------------------------------------------------------------------------------------
A|---------------------------------------------------------------------------------------------
E|---------------------------------------------------------------------------------------------



E|----------
B|----------
G|--16--14--
D|----------
A|--14--12--
E|----------



E|------------------------------------------------------------------
B|--13--13--13--12--12--12----------15--15--15--12--12--12----------
G|--------------------------12--12--------------------------12--12--
D|------------------------------------------------------------------
A|------------------------------------------------------------------
E|------------------------------------------------------------------



E|--------------------------------------------------------------
B|--------------------------------------------------------------
G|--9--9--9--9--11--11--11--11--12--12--12--12--16--16--16--16--
D|--------------------------------------------------------------
A|--7--7--7--7--9---9---9---9---10--10--10--10--14--14--14--14--
E|--------------------------------------------------------------



E|--------------------------------------------------------------
B|----------------------------------------------15--15--15--15--
G|--9--9--9--9--11--11--11--11--12--12--12--12------------------
D|----------------------------------------------12--12--12--12--
A|--7--7--7--7--9---9---9---9---10--10--10--10------------------
E|--------------------------------------------------------------
http://www.guitartabcreator.com
Guitar Tab Creator is intended to store guitar tab created through the tool. It currently does not support in-line text editing. Any text you place in here will be lost. If you need to comment on your tab, please use the "Tab Notes" section located below.