Nobody's Fault But Mine (A minor) TAB

(/) Slide Up  (\) Slide Down  (h) Hammer On  (p) Pull Off  (b) Bend (r) Release (v) Vibrato

E|--------0----------------------------------|
B|-------------3--1----3-------1----------1--|
G|-----0------------------5-------2-------0--|
D|---------------------4-------3----------2--|
A|--0---------------------5---------------0--|
E|-----------------------------------1-------|



E|--------0--0--0-------5r0-------0--|
B|-------------------8------------0--|
G|-----0-------------7-------7----2--|
D|-----------------------------------|
A|--0-----------------------------0--|
E|-----------------------------------|



E|--5--5----5--3---------0----------------------0---------------------------------|
B|--5-------5-----5------------3-------------1-----3--1------------3--1-----------|
G|--------------------------5-----5-------2---------------------2--------2--0--2--|
D|--------------------------------------------------------------------------------|
A|--0-------0------------5-----------------------------------------------------0--|
E|-------------------------------------1---------------------0--------------------|



E|--5--5---------------------|
B|--5--4r3----------------1--|
G|----------5--2--0--2----2--|
D|------------------------2--|
A|------------------------0--|
E|---------------------------|
http://www.guitartabcreator.com
Guitar Tab Creator is intended to store guitar tab created through the tool. It currently does not support in-line text editing. Any text you place in here will be lost. If you need to comment on your tab, please use the "Tab Notes" section located below.