inspired by Erykah Badu - Certainly (flipped it) 001

(/) Slide Up  (\) Slide Down  (h) Hammer On  (p) Pull Off  (b) Bend (r) Release (v) Vibrato

E|-------------------|-------------------|--------------|-------------------------|--
B|-----1-------3-----|-----1-------3-----|--1--2--2--1--|-----1-------3-----2--1--|--
G|-----1-------3--3--|-----1-------3--3--|--1--1--1--1--|-----1-------3--3--1--1--|--
D|-----1-------3--3--|-----1-------3--3--|--1--3--3--1--|-----1-------3--3--3--1--|--
A|--------3/5-----4--|--------3/5-----4--|--3--4--1-----|--------3/5-----4--4-----|--
E|--1----------------|--1----------------|-----------1--|--1-------------------1--|--



E|----------------------------|-----------------------------|--
B|-----1-----1--1-------3-----|-----1-----1--1--2--2--4--4--|--
G|-----1-----1--1-------3--3--|-----1-----1--1--1--1--3--3--|--
D|-----1-----1--1-------3--3--|-----1-----1--1--3--3--5--5--|--
A|-----------------3/5-----4--|-----------------4--4--3--3--|--
E|--1-----1-------------------|--1-----1--------------------|--
http://www.guitartabcreator.com
Guitar Tab Creator is intended to store guitar tab created through the tool. It currently does not support in-line text editing. Any text you place in here will be lost. If you need to comment on your tab, please use the "Tab Notes" section located below.