Metallica: Nothing else matters - intro/part 1

(/) Slide Up  (\) Slide Down  (h) Hammer On  (p) Pull Off  (b) Bend (r) Release (v) Vibrato
E|-----------0-----------------0-----------------0-----------------0-----
B|--------0-----0-----------0-----0-----------0-----0-----------0-----0--
G|-----0-----------0-----0-----------0-----0-----------0-----0-----------
D|-----------------------------------------------------------------------
A|-----------------------------------------------------------------------
E|--0-----------------0-----------------0-----------------0--------------



E|--5/7--7--------7p0-----------------7--8----7h8p7p5----7----5p3\2--0--
B|----------0----------0-----------0--0--0---------------0--------------
G|-------------0----------0-----0---------------------------------------
D|----------------------------------------------------------------------
A|----------------------------------------------------------------------
E|-------0-------------------0------------------------------------------



E|-----------2p0-----------------0--0--0--0---------------3p0--------0--5-------
B|--5-----5-------5-----------5-----5--5--5---------5----------5-----5--7-------
G|-----5-------------5-----5--------5--5--5------5-----5----------5--5--7-------
D|------------------------------------------------------------------------------
A|--0-------------------0-----------0--2--3--------------------------3--5-------
E|------------------------------------------------------------------------------



E|-----------0h5p0-----------------------12-----------------0-----------------0-----------
B|-----7------------7p0--0h5---------12------0-----------0-----0-----------0-----0--------
G|--7-----7----------------------12-------------0-----0-----------0-----0-----------0-----
D|----------------------------------------------------------------------------------------
A|----------------------------------------------------------------------------------------
E|----------------------------0--------------------0-----------------0--------------------



E|-----------0--------
B|--------0-----0-----
G|-----0-----------0--
D|--------------------
A|--------------------
E|--0-----------------
http://www.guitartabcreator.com
Guitar Tab Creator is intended to store guitar tab created through the tool. It currently does not support in-line text editing. Any text you place in here will be lost. If you need to comment on your tab, please use the "Tab Notes" section located below.