strink skip øvelse gilbert

(/) Slide Up  (\) Slide Down  (h) Hammer On  (p) Pull Off  (b) Bend (r) Release (v) Vibrato


E|--12------12------12------12-----------------------
B|---------------------------------------------------
G|------16------15------14------12--------------12v--
D|----------------------------------14--12--14-------
A|---------------------------------------------------
E|---------------------------------------------------



E|--------------------------------------
B|--5-----5-----5-----5-----------------
G|--------------------------------------
D|-----9-----8-----7-----5--------------
A|--------------------------7--5--7-----
E|-----------------------------------0--
http://www.guitartabcreator.com
Guitar Tab Creator is intended to store guitar tab created through the tool. It currently does not support in-line text editing. Any text you place in here will be lost. If you need to comment on your tab, please use the "Tab Notes" section located below.