the picking lick øvelse 1 gilbert

(/) Slide Up  (\) Slide Down  (h) Hammer On  (p) Pull Off  (b) Bend (r) Release (v) Vibrato


E|--5-----5-----5-----5-----5-----5-----------------5v--
B|-----8-----8-----8-----8-----8-----8--6--5--6--8------
G|------------------------------------------------------
D|------------------------------------------------------
A|------------------------------------------------------
E|------------------------------------------------------



E|--8------8------8------8------8---------------------8v--
B|-----12-----12-----12-----12-----12--10--8--10--12------
G|--------------------------------------------------------
D|--------------------------------------------------------
A|--------------------------------------------------------
E|--------------------------------------------------------



E|--12------12------12------12----------------------12v--
B|------15------15------15------15--13--12--13--15-------
G|-------------------------------------------------------
D|-------------------------------------------------------
A|-------------------------------------------------------
E|-------------------------------------------------------
http://www.guitartabcreator.com
Guitar Tab Creator is intended to store guitar tab created through the tool. It currently does not support in-line text editing. Any text you place in here will be lost. If you need to comment on your tab, please use the "Tab Notes" section located below.