a minor picking lick

(/) Slide Up  (\) Slide Down  (h) Hammer On  (p) Pull Off  (b) Bend (r) Release (v) Vibrato


E|--------------------------------------------------------12--13--15--17--
B|--------------------------------------------12--13--15------------------
G|---------------------------------9--10--12------------------------------
D|----------------------9--10--12-----------------------------------------
A|------------7--8--10----------------------------------------------------
E|--7--8--10--------------------------------------------------------------



E|--17--15--13---------------------------------------------------------------
B|--------------17--15--13---------------------------------------------------
G|--------------------------14--12--10---------------------------------------
D|--------------------------------------14--12--10---------------------------
A|--------------------------------------------------12--10--8----------------
E|-------------------------------------------------------------12--10--8--5--
http://www.guitartabcreator.com
Guitar Tab Creator is intended to store guitar tab created through the tool. It currently does not support in-line text editing. Any text you place in here will be lost. If you need to comment on your tab, please use the "Tab Notes" section located below.