legato gilbert

(/) Slide Up  (\) Slide Down  (h) Hammer On  (p) Pull Off  (b) Bend (r) Release (v) Vibrato

E|--8--7--5--7--8--5-----------------5----
B|--------------------8--7--5--7--8-----8b
G|----------------------------------------
D|----------------------------------------
A|----------------------------------------
E|----------------------------------------



E|-------------------------------------
B|--8--7--5--7--8--5-----------------5b
G|--------------------8--7--5--7--8----
D|-------------------------------------
A|-------------------------------------
E|-------------------------------------



E|--12--10--8--10--12--8---------------------8b
B|------------------------12--10--8--10--12----
G|---------------------------------------------
D|---------------------------------------------
A|---------------------------------------------
E|---------------------------------------------
http://www.guitartabcreator.com
Guitar Tab Creator is intended to store guitar tab created through the tool. It currently does not support in-line text editing. Any text you place in here will be lost. If you need to comment on your tab, please use the "Tab Notes" section located below.