gilbert rytme .

(/) Slide Up  (\) Slide Down  (h) Hammer On  (p) Pull Off  (b) Bend (r) Release (v) Vibrato


E|----------------------------
B|----------------------------
G|----------------------------
D|----------------------------
A|---------------7--10--12----
E|--5--5--8--10-------------8b



E|----------------------------------
B|----------------------------------
G|----------------------------------
D|----------------------------------
A|------------------7--8--10--12----
E|--5--5--7--8--10----------------8b
http://www.guitartabcreator.com
Guitar Tab Creator is intended to store guitar tab created through the tool. It currently does not support in-line text editing. Any text you place in here will be lost. If you need to comment on your tab, please use the "Tab Notes" section located below.