fast pentatonic gilbert 1

(/) Slide Up  (\) Slide Down  (h) Hammer On  (p) Pull Off  (b) Bend (r) Release (v) Vibrato


E|--15--14------14----------14--12------12----------
B|----------17------17--14----------14------14--12--
G|--------------------------------------------------
D|--------------------------------------------------
A|--------------------------------------------------
E|--------------------------------------------------



E|--------------------------------------------------------------------------------------
B|--------------------------------------------------------------------------------------
G|--12--11------11----------11--9------9------------------------------------------------
D|----------14------14--11---------11-----11--9-----------------------------------------
A|-----------------------------------------------10--9------9---------9--7-----7--------
E|------------------------------------------------------12-----12--9--------9-----9--7--



E|-----
B|-----
G|-----
D|-----
A|-----
E|--5--



E|--12--9----------------------------------------------------------
B|---------12--8---------------------------------------------------
G|----------------11--9--------------------------------------------
D|-----------------------11--9----------------------------------7--
A|------------------------------10--9------------------7--8--9-----
E|-------------------------------------12--9--7--8--9--------------
http://www.guitartabcreator.com
Guitar Tab Creator is intended to store guitar tab created through the tool. It currently does not support in-line text editing. Any text you place in here will be lost. If you need to comment on your tab, please use the "Tab Notes" section located below.