My Own World

(/) Slide Up  (\) Slide Down  (h) Hammer On  (p) Pull Off  (b) Bend (r) Release (v) Vibrato


E|---------------------------------------
B|---------------------------------------
G|---------------------------------------
D|-----------------------------------2---
A|-0-0-0-2-2-3-3-5-5-3-3-2-2---2-0-3-----
E|---------------------------3-----------



E|-----------------------|-------------------------
B|-----------------------|-------------------------
G|-----------------------|-------------------------
D|-4-4-4-4-5-5-5-7-7-7-7-|-4-4-4-4-5-5-5-5---------
A|-2-2-2-2-3-3-3-5-5-5-5-|-2-2-2-2-3-3-3-3-5-5-5-5-
E|-----------------------|-----------------3-3-3-3-



E|-------------------------------------------------
B|-------------------------------------------------
G|-------------------------------------------------
D|-------------------------------------------------
A|-2h3h5p3p2---2h3h5p3p2---2h3h5p3p2---2h3h5p3p2---
E|-----------5-----------3-----------1-----------0-



E|------------------------------------------------------------------------------------------
B|------------------------------------------------------------------------------------------
G|-14h15h17p15-14----14h15h17p15p14----14h15h17p15p14----14h15h17p15p14---------------------
D|----------------17----------------15----------------13----------------12v-12h13p12--------
A|-----------------------------------------------------------------------------------13/15--
E|------------------------------------------------------------------------------------------
http://www.guitartabcreator.com
Guitar Tab Creator is intended to store guitar tab created through the tool. It currently does not support in-line text editing. Any text you place in here will be lost. If you need to comment on your tab, please use the "Tab Notes" section located below.