Minuet C

(/) Slide Up  (\) Slide Down  (h) Hammer On  (p) Pull Off  (b) Bend (r) Release (v) Vibrato

E|-----------------------------------------------------------------------------------------------
B|--------------------------------------0--1-----------------------------------------------------
G|--0--------------0--------2-----0--2-----------------0-----------------------------------------
D|--------0--2--3--------------3--------------------3-----3--2--0--2--3--2--0-----------0--2-----
A|-----3--------------3--3--------------------3--3-----------------------------3--2--3--------3--
E|-----------------------------------------------------------------------------------------------



E|--------------------------------------------------------------------------------------------------
B|--------------------------------------------0--1--------------------------------------------------
G|--------0--------------0--------2-----0--2-----------------0--------------------------------------
D|--2--0--------0--2--3--------------3--------------------3-----3--2--0--2--3--2-----3--2--0--------
A|-----------3--------------3--3--------------------3--3--------------------------3-----------3--2--
E|--------------------------------------------------------------------------------------------------



E|-----
B|-----
G|-----
D|-----
A|--3--
E|-----
http://www.guitartabcreator.com
Guitar Tab Creator is intended to store guitar tab created through the tool. It currently does not support in-line text editing. Any text you place in here will be lost. If you need to comment on your tab, please use the "Tab Notes" section located below.