Wonderful Tonight - Eric Clapton

(/) Slide Up  (\) Slide Down  (h) Hammer On  (p) Pull Off  (b) Bend (r) Release (v) Vibrato

E|--3--2-----2--
B|--3--3--1--3--
G|-----2-----2--
D|--------2-----
A|--2-----3-----
E|--3-----------



E|-----2--3--3--------2-----3--
B|--1--3--3--3-----1--3--1--3--
G|-----2--------------2-----2--
D|--2-----------2--2-----2-----
A|--3-----2-----2--3-----3-----
E|--------3--2-----------------



E|----------------------------------------10\12--10--
B|--10--8--10--10b8-----10b8--10--12--13-------------
G|-------------------9-------------------------------
D|---------------------------------------------------
A|---------------------------------------------------
E|---------------------------------------------------
http://www.guitartabcreator.com
Guitar Tab Creator is intended to store guitar tab created through the tool. It currently does not support in-line text editing. Any text you place in here will be lost. If you need to comment on your tab, please use the "Tab Notes" section located below.