Wish You Were Here Intro

(/) Slide Up  (\) Slide Down  (h) Hammer On  (p) Pull Off  (b) Bend (r) Release (v) Vibrato

E|-----------------------------3-5---------------------
B|-----3-5---3-----------------3\5-3-5-3-0-3-5-3-0-----
G|-2\4-----4---4p2p0---------------2\4-2-0-2\4-2-0-----
D|-------------------0-----0-0---------------------2\5-
A|---------------------1\2-----------------------------
E|-----------------------------------------------------



E|-------------------------------------------------------
B|-----3---5-5-3---3-------3-5---------3---5-5-3-5-------
G|-2\4---4-------4---2-4b4-----4b2-2\4---4---------2-4b2-
D|-------------------------------------------------------
A|-------------------------------------------------------
E|-------------------------------------------------------
http://www.guitartabcreator.com
Guitar Tab Creator is intended to store guitar tab created through the tool. It currently does not support in-line text editing. Any text you place in here will be lost. If you need to comment on your tab, please use the "Tab Notes" section located below.