What I Got - Sublime

(/) Slide Up  (\) Slide Down  (h) Hammer On  (p) Pull Off  (b) Bend (r) Release (v) Vibrato


E|-----------------------------------------------------------10-----------------------------
B|--------------10-----------------------------------10--12------12--12--10--13--12--10-----
G|--------------10--------------11--10--7--7--11h12--------------------------------------12b
D|------10--12------12--10------12--11--9--9------------------------------------------------
A|--12----------------------12--------------------------------------------------------------
E|------------------------------------------------------------------------------------------



E|--2--2--2--2--3--3--3--3--
B|--3--3--3--3--3--3--3--3--
G|--2--2--2--2--------------
D|--------------------------
A|--------------2--2--2--2--
E|--------------3--3--3--3--
http://www.guitartabcreator.com
Guitar Tab Creator is intended to store guitar tab created through the tool. It currently does not support in-line text editing. Any text you place in here will be lost. If you need to comment on your tab, please use the "Tab Notes" section located below.