We Thank You Jehovah - Sing Praises To Jehovah

(/) Slide Up  (\) Slide Down  (h) Hammer On  (p) Pull Off  (b) Bend (r) Release (v) Vibrato


E|--------------------10--8--8--6--5--5--6---------------------------
B|-----6--6--8--5--6------------------------8--10--6--6--8--5--------
G|--5----------------------------------------------------------7--5--
D|-------------------------------------------------------------------
A|-------------------------------------------------------------------
E|-------------------------------------------------------------------



E|--------------------10--8--8--6--5-----10--8--6--10------------------
B|-----6--6--8--5--6------------------6----------------6--8--10--8--6--
G|--5------------------------------------------------------------------
D|---------------------------------------------------------------------
A|---------------------------------------------------------------------
E|---------------------------------------------------------------------
http://www.guitartabcreator.com
Guitar Tab Creator is intended to store guitar tab created through the tool. It currently does not support in-line text editing. Any text you place in here will be lost. If you need to comment on your tab, please use the "Tab Notes" section located below.