Territorial Pissing - Nirvana

(/) Slide Up  (\) Slide Down  (h) Hammer On  (p) Pull Off  (b) Bend (r) Release (v) Vibrato


E|-------------------------------------------------------------------------
B|-------------------------------------------------------------------------
G|--11--11b12--11-----7--------------------10--10--10--10--10--10--10--10--
D|--10--10-11--10--7--7--7--7--7--7--7--7--10--10--10--10--10--10--10--10--
A|--0--------------7--7--7--7--7--7--7--7--8---8---8---8---8---8---8---8---
E|--0---0--0---0---5--5--5--5--5--5--5--5----------------------------------



E|--------------------------------------------------
B|--------------------------------------------------
G|--7--7--7--7--7--7--7--7--7--7--7--7--7--7--7--7--
D|--7--7--7--7--7--7--7--7--7--7--7--7--7--7--7--7--
A|--5--5--5--5--5--5--5--5--5--5--5--5--5--5--5--5--
E|--------------------------------------------------
http://www.guitartabcreator.com
Guitar Tab Creator is intended to store guitar tab created through the tool. It currently does not support in-line text editing. Any text you place in here will be lost. If you need to comment on your tab, please use the "Tab Notes" section located below.