Tangerine - Led Zeppelin

(/) Slide Up  (\) Slide Down  (h) Hammer On  (p) Pull Off  (b) Bend (r) Release (v) Vibrato

E|--0--0--0--0--3--3--2--2--2--2--0--0--0--0--3--3--2--2--0--0--------------------------------------
B|--1--3--1--0--3--3--3--3--3--3--1--3--1--0--3--3--3--3--1--1-----------1-----------1-----------1--
G|--2--2--2--2--0--0--2--2--2--2--2--2--2--2--0--0--2--2--0--0--------0-----------0-----------2-----
D|--2--2--2--2--0--0--0--0--0--0--2--2--2--2--0--0--0--0--2--2-----2-----------0-----------2--------
A|--0--0--0--0--2--2--------------0--0--0--0--2--2--------3--3--3-----------2-----------0-----------
E|--------------3--3--------------------------3--3--------------------------------------------------



E|--0--0--3--2--3--2--0--0--0--2--2--2--3--3--3--3--2--2--0--0--0--0--2--2--3--3--3--3--2--2-----
B|--1--1--3--3--3--3--1--1--1--3--3--3--3--3--3--3--3--3--1--1--1--1--3--3--3--3--3--3--3--3-----
G|--2--2-----2--2--2--0--0--0--2--2--2--0--0--0--0--2--2--0--0--0--0--2--2--0--0--0--0--2--2-----
D|--2--2-----0--0--0--2--2--2--0--0--0--0--0--0--0--0--0--2--2--2--2--0--0--0--0--0--0--0--0-----
A|--0--0--2-----------3--3--3-----------2--2--2--2--------3--3--3--3--------2--2--2--2-----------
E|--------3-----------------------------3--3--3--3--------------------------3--3--3--3-----------



E|------------10--12--10-------------------------------------10------------------------10-----
B|--3/10--13--------------13--12--13--13b15--12--12--12--13------12\10/12--12--12--13---------
G|--------------------------------------------------------------------------------------------
D|--------------------------------------------------------------------------------------------
A|--------------------------------------------------------------------------------------------
E|--------------------------------------------------------------------------------------------



E|--15b17--15--19--19--19--17--17--19--20--20b21--
B|------------------------------------------------
G|------------------------------------------------
D|------------------------------------------------
A|------------------------------------------------
E|------------------------------------------------
http://www.guitartabcreator.com
Guitar Tab Creator is intended to store guitar tab created through the tool. It currently does not support in-line text editing. Any text you place in here will be lost. If you need to comment on your tab, please use the "Tab Notes" section located below.