Stairway Intro - Zeppelin

(/) Slide Up  (\) Slide Down  (h) Hammer On  (p) Pull Off  (b) Bend (r) Release (v) Vibrato


E|-----------5--7--------7--8--------8--2--------2--1-----------1-----------0--0-------------
B|--------5--------5-----------5-----------3-----------1-----1-----1-----0--1--1-------------
G|-----5--------------5-----------5-----------2-----------2-----------2-----2--2-------------
D|--7-----------6-----------5-----------4-----------3-----------------------2--2-------------
A|-----------------------------------------------------------------------2--0--0--0--5\8--7--
E|-------------------------------------------------------------------------------------------



E|-------5----------------------------------8---8---8b10--8--5--------8--10p8-----------------
B|----------8--5--------------------------8b10--10--------------8/10-----------10p8-----8h10--
G|--7b9-----------7--5-----7--5------------------------------------------------------9--------
D|----------------------7--------7--5---------------------------------------------------------
A|-------------------------------------8------------------------------------------------------
E|--------------------------------------------------------------------------------------------
http://www.guitartabcreator.com
Guitar Tab Creator is intended to store guitar tab created through the tool. It currently does not support in-line text editing. Any text you place in here will be lost. If you need to comment on your tab, please use the "Tab Notes" section located below.