Santeria - Sublime

(/) Slide Up  (\) Slide Down  (h) Hammer On  (p) Pull Off  (b) Bend (r) Release (v) Vibrato
E|-----------------------------------------------------------------------------
B|-----------------------------------------------------------------------------
G|-------------9-11b11-9-8v-8/6-8b6-6p4---4------------------------------------
D|--------9-11--------------------------6---4b2h4p2---2----------------4h5h6---
A|-7-9-11-------------------------------------------4---4v-------2h3h4---------
E|---------------------------------------------------------2h3h4---------------



E|----------9--------------------------------------------------------9--------
B|-----5-12---12-9------------------------------------------------11---9---11b
G|-4h6-------------11b9----9--------------------------------------11b----9-11-
D|----------------------11---11p9---------9-------------10----10v-------------
A|--------------------------------11-9h11---11\9-7-9/11----11-11--------------
E|----------------------------------------------------------------------------



E|--9----------------------------------
B|-----9-----11------------------------
G|--------9--11b11b11--9--11--9--------
D|-------------------------------11/2--
A|-------------------------------------
E|-------------------------------------
http://www.guitartabcreator.com
Guitar Tab Creator is intended to store guitar tab created through the tool. It currently does not support in-line text editing. Any text you place in here will be lost. If you need to comment on your tab, please use the "Tab Notes" section located below.