Rock and Roll Hoochie Koo

(/) Slide Up  (\) Slide Down  (h) Hammer On  (p) Pull Off  (b) Bend (r) Release (v) Vibrato


E|-----------------------------------------------------------------------------
B|-----------------------------------------------------------------------------
G|--------------------------2--2--------------5--2--0--2-----------------------
D|--------------------------2--2--------2-----5--2--0--2--------------5--------
A|--3--3--5--3--5--5--7--5--0--0--3--4-----4--------------3--3--5--3--3--5--7--
E|--1--1-----1--3--3-----3--------------------------------1--1-----1-----3--5--



E|--------------------------------------------------------------------------------
B|--------------------------------------------------------------------------------
G|----------6\7--6\7-----6\7--6\7--2--2--5--7--5--2--2----------------------------
D|-------2------------2------------2--2--5--7--5--2--2--7--7--5--------------5\7--
A|-------2--4-5--4-5--2--4-5--4-5--0--0--3--5--3--0--0-----------7--6--5--3-------
E|--3b4--0------------0-----------------------------------------------------------



E|--------------------------------------------------------
B|--------------------------------------------------------
G|--2--2--5--7--5--2--2--------------------2--------------
D|--2--2--5--7--5--2--2--7--5--------------2--------------
A|--0--0--3--5--3--0--0--------7--6--5--3--0--3--3--5--3--
E|--------------------------------------------1--1--1--1--
http://www.guitartabcreator.com
Guitar Tab Creator is intended to store guitar tab created through the tool. It currently does not support in-line text editing. Any text you place in here will be lost. If you need to comment on your tab, please use the "Tab Notes" section located below.