Over the Hills - Led Zeppelin

(/) Slide Up  (\) Slide Down  (h) Hammer On  (p) Pull Off  (b) Bend (r) Release (v) Vibrato

E|-----------------3--3--3---------------------------2--2--2-----------------3--3--3-----
B|-----------------0--0--0---------------------------3--3--3-----------------0--0--0-----
G|--0h2p0-------0--0--0--0--0h2p0-------0--4p2p0-----2--2--2--0h2p0-------0--0--0--0-----
D|---------4p0-----0--0--0---------4p0------------0--0--0--0---------4p0-----0--0--0-----
A|-----------------2--2--2---------------------------------------------------2--2--2-----
E|-----------------3--3--3---------------------------------------------------3--3--3-----



E|---------------------------2-----------------------3--3--3---------------------------2--2--2--
B|---------------------------3-----------------------0--0--0---------------------------3--3--3--
G|--0h2p0-------0--4p2p0-----2-----------------------0--0--0--0h2p0-------0--4p2p0-----2--2--2--
D|---------4p0------------0--0-----0--2-----0--2--0--0--0--0---------4p0------------0--0--0--0--
A|---------------------------0--2--------2-----------2--2--2------------------------------------
E|---------------------------------------------------3--3--3------------------------------------



E|--------------------3--3--3--3--3--3--3--3--3--3--3--------------------3--3--3-----------
B|--------------------3--3--3--3--3--3--3--3--3--3--3--------------------3--3--3-----------
G|--0h2p0-------0-----0--0--0--0--0--0--0--0--0--0--0--0h2p0-------0-----0--0--0-----------
D|---------4p0--------2--2--2--2--1--1--1--1--1--2--2---------4p0--------2--2--------------
A|-----------------3--3--3--2--2--1--1--1--1--1--3--3-----------------3--3--3--2-----------
E|--------------------------------------------------------------------------------3--3-----



E|-----------------2--2--2-----------------------2--2--2-------9---7--9---7--3--2--2--0--
B|-----------------3--3--3-----------------------3--3--3-------10--8--10--8--3--3--3--2--
G|-----------------2--2--2-----------------------2--2--2-------9---7--9---7--0--2--2--2--
D|-----------2--0--0--0--0-----------------2--0--0--0--0---------------------0--0--0--2--
A|--0--2--0-----------------------0--2--0------------------------------------2--------0--
E|--------------------------3--3-----------------------21--21----------------3-----------



E|--3--0--3--0--3--2--2--0--
B|--3--2--3--2--3--3--3--2--
G|--0--2--0--2--0--2--2--2--
D|--0--2--0--2--0--0--0--2--
A|--2--0--2--0--2--------0--
E|--3-----3-----3-----3-----
http://www.guitartabcreator.com
Guitar Tab Creator is intended to store guitar tab created through the tool. It currently does not support in-line text editing. Any text you place in here will be lost. If you need to comment on your tab, please use the "Tab Notes" section located below.