Nothing Else Matters - Metallica

(/) Slide Up  (\) Slide Down  (h) Hammer On  (p) Pull Off  (b) Bend (r) Release (v) Vibrato

E|-----------0--------7--7--------7p0--------------7--7--8--7h8p7--5h7--5/2--0--0--------2p0-----------
B|--------0-----0--------------0-------0-----------0---------------0------------5-----5-------5--------
G|-----0-----------0--------0-------------0-----0-------------------------------5--5-------------5-----
D|-----------------------------------------------------------------------------------------------------
A|------------------------------------------------------------------------------0----------------------
E|--0--------------------0-------------------0---------------------------------------------------------



E|-----------0--0--0--0--------------3p0--------------------------0h5p0-----------------------12----------
B|--------5-----5--5--5--------5----------5-----5--7--------7------------7p0--0h5---------12------12------
G|-----5--------5--5--5-----5-----5----------5--5--7-----7-----7----------------------12--------------12--
D|--------------------------------------------------------------------------------------------------------
A|--0-----------0--2--3--3----------------------3--5--5---------------------------------------------------
E|---------------------------------------------------------------------------------0----------------------



E|--------------7--------5--------3--------------7-----5-----------3-----------3--------
B|--------------8--------7--------5--------------8--------7-----------5-----------3--0--
G|-----------9-----------7--------5-----------9--------------7-----------5--------------
D|--------9-----------7--------5-----------9--------------------------------------------
A|-----7-----------5--------3-----------7-----------5-----------3-----------------------
E|--0--------------------------------0--------------------------------------3-----------



E|-----2-----------------0-----------------0-----------------0--2--0--0--2--0--3--2--0-----------0--
B|--------0-----------0-----0-----------0-----0--------------0--3--3--0--3--3--3--0--0--------0-----
G|-----------2-----0-----------0-----0-----------0-----------0--2--0--0--2--0--0--2--0-----0--------
D|-----------------------------------------------------------2--0--2--2--0--2--0--1--2--------------
A|--2--------------------------------------------------------2-----3--2-----3--2--2--2--------------
E|--------------0-----------------0-----------------3--2--0--0--------0--------3-----0--0-----------
http://www.guitartabcreator.com
Guitar Tab Creator is intended to store guitar tab created through the tool. It currently does not support in-line text editing. Any text you place in here will be lost. If you need to comment on your tab, please use the "Tab Notes" section located below.