Love Song - Tesla

(/) Slide Up  (\) Slide Down  (h) Hammer On  (p) Pull Off  (b) Bend (r) Release (v) Vibrato


E|---------------------------14--12--10-----------------------------2--3--2h3p2--0-----------
B|--8--8p7--5--7--7\3--3--3--------------14--12--10---------------------------------2--3--5--
G|---------------------------------------------------12--10--9-------------------------------
D|--0----------0------------------------------------------------12--0------------------------
A|----------------------------------------------------------------------------------0--------
E|-------------------------------------------------------------------------------------------



E|--------------------------5--7--5h7p5--0--2--3--------------------------2--3--2h3p2--0-----------
B|--3-----------3--0--2--3--7------------2--3--5--3-----------5--0--2--3------------------2--3--5--
G|--------4---------------------------------------------4------------------------------------------
D|-----4-----4--------------0------------------------4-----4--------------0------------------------
A|--2------------------------------------0--------2---------------------------------------0--------
E|-----------------3---------------------------------------------3---------------------------------



E|--------------------------------------------
B|--3--2--5--3--3-----3-----2--2-----2-----3--
G|-----------------0-----0--------2-----2-----
D|--------------------------------------------
A|--2--0--------------------0--------------2--
E|--------4--3--------------------------------
http://www.guitartabcreator.com
Guitar Tab Creator is intended to store guitar tab created through the tool. It currently does not support in-line text editing. Any text you place in here will be lost. If you need to comment on your tab, please use the "Tab Notes" section located below.