Let It Be - Beatles - w/Solo

(/) Slide Up  (\) Slide Down  (h) Hammer On  (p) Pull Off  (b) Bend (r) Release (v) Vibrato

E|--0--3--0--1--0--3--1--------0--21--21--21--0--3--1--0--0--3--1--------0--21--21--
B|--1--0--1--1--1--0--1--------1--------------1--0--1--1--1--0--1--------1----------
G|--0--0--2--2--0--0--2--------0--------------2--0--2--0--0--0--2--------0----------
D|--2--0--2--3--2--0--3--2--0--2--------------2--0--3--2--2--0--3--2--0--2----------
A|--3--2--0-----3--2-----------3--------------0--2-----3--3--2-----------3----------
E|-----3-----------3-----------------------------3-----------3----------------------



E|-------------------------------------------------------------------------------------------------
B|--------------------------------------------------------------------------------8--10p8----------
G|---------------------------------------------------------------------------7\9-----------9/7--5--
D|---------------------------------------5--7---------------5--5--5--5b6--7------------------------
A|--3--3--5\7/5--3--5--5--5\7/5--3--5\7--------7/5--3--5\7-----------------------------------------
E|-------------------------------------------------------------------------------------------------



E|-------------------------------------------------------------------------------
B|---------------------------------------------------------------8h10p8----------
G|--7p5-------------------------------7b9--7--5--7----------7\9----------9/7--5--
D|-------7p5------------------5\7--5----------------7--5h7-----------------------
A|------------7/5--3--5\7--3-----------------------------------------------------
E|-------------------------------------------------------------------------------



E|----------------8--------------10b12b10--8---------------------------------
B|-------------------10p8-----8---------------10p8-----10p8------------------
G|--------5--7\9-----------9------------------------9--------9/7--5h7p5--5v--
D|--5--7---------------------------------------------------------------------
A|---------------------------------------------------------------------------
E|---------------------------------------------------------------------------
http://www.guitartabcreator.com
Guitar Tab Creator is intended to store guitar tab created through the tool. It currently does not support in-line text editing. Any text you place in here will be lost. If you need to comment on your tab, please use the "Tab Notes" section located below.