Led Blues Lick - Jimmy Page

(/) Slide Up  (\) Slide Down  (h) Hammer On  (p) Pull Off  (b) Bend (r) Release (v) Vibrato


E|-----8----------------11--10--8-----10p8------------
B|--8-----11--8--11b13-------------9--------9--11--8--
G|----------------------------------------------------
D|----------------------------------------------------
A|----------------------------------------------------
E|----------------------------------------------------



E|--8---8---10--8----------------------------------------------------8--10--11--
B|--8---9---11--9------------------------------------------8--9--11-------------
G|--8---8---10--8--------------------------------7--8--10-----------------------
D|--10--10--12--10------------------------8--10---------------------------------
A|--10--8---10--8--------------8--10--11----------------------------------------
E|--8---------------8--10--11---------------------------------------------------
http://www.guitartabcreator.com
Guitar Tab Creator is intended to store guitar tab created through the tool. It currently does not support in-line text editing. Any text you place in here will be lost. If you need to comment on your tab, please use the "Tab Notes" section located below.