Layla - Clapton Unplugged Solo

(/) Slide Up  (\) Slide Down  (h) Hammer On  (p) Pull Off  (b) Bend (r) Release (v) Vibrato

E|-5-5-5-5-5-5-5-5-5-----------------------
B|-6-6-6-6-6-6-6-6-6-----------------------
G|-------------7-----7-5-------------------
D|-----------------------7-6-5\3-5p3-----3-
A|-----------------------------------5b5---
E|-----------------------------------------



E|-------------------------------------------------------
B|-12-13-13-12-13-13-12/13-13-12/13-13-12-13-13-12-13-13-
G|-13/14-14-13/14-14-13-14-14-13-14-14-13/14-14-13/14-14-
D|-------------------------------------------------------
A|-------------------------------------------------------
E|-------------------------------------------------------



E|-------------------------------------------10-12-10h12-10h12-10----10-10-------------
B|-------13-15-------------------------10-13----------------------13-------13-10b10b10-
G|-13\14-------14\12-10-12-10----10-12-------------------------------------------------
D|----------------------------12-------------------------------------------------------
A|-------------------------------------------------------------------------------------
E|-------------------------------------------------------------------------------------



E|------------------------------------------------------------------------------------
B|--11--10---------------------------------5--6--5h6--5h6-----------------------------
G|----------12--10--9--7--9--7b7--5-----7------------------7--5-----------------------
D|-----------------------------------7---------------------------7--6--5-----5--------
A|------------------------------------------------------------------------8-----8--5--
E|------------------------------------------------------------------------------------
http://www.guitartabcreator.com
Guitar Tab Creator is intended to store guitar tab created through the tool. It currently does not support in-line text editing. Any text you place in here will be lost. If you need to comment on your tab, please use the "Tab Notes" section located below.