Layla - Clapton Electric

(/) Slide Up  (\) Slide Down  (h) Hammer On  (p) Pull Off  (b) Bend (r) Release (v) Vibrato


E|----------------------------------------------
B|----------------------------------------------
G|-------------------7--5--3--------5--------7--
D|------0h3p0-----0--7--5--3--------5--------7--
A|--0h3b-------3-----5--3--1--0-----3--0-----5--
E|-------------------------------3--------3-----



E|---------10h13p10------10--13b15--13v--12--------------------10h13p10------10--15b17--15v-----
B|--10h13------------13----------------------13--13b15--10h13------------13---------------------
G|----------------------------------------------------------------------------------------------
D|----------------------------------------------------------------------------------------------
A|----------------------------------------------------------------------------------------------
E|----------------------------------------------------------------------------------------------



E|--12-------------
B|------13--13b15--
G|-----------------
D|-----------------
A|-----------------
E|-----------------
http://www.guitartabcreator.com
Guitar Tab Creator is intended to store guitar tab created through the tool. It currently does not support in-line text editing. Any text you place in here will be lost. If you need to comment on your tab, please use the "Tab Notes" section located below.