Lake of Fire - Nirvana

(/) Slide Up  (\) Slide Down  (h) Hammer On  (p) Pull Off  (b) Bend (r) Release (v) Vibrato


E|---------------------------------------------------------------------------------------------
B|-----------------------------5--5--3---------------------------------------------------------
G|-----------------3-----------5--5--3v-----------------3--5--5--5-----------------------3-----
D|--5--5--5--3--3--3--5--5--5------------5--5--5--3--3--3--5--5--5--3--3--5--5--5--5--3--3--5--
A|--5--5--5--3--3--1--5--5--5------------5--5--5--3--3--1--3--3--3--3--3--5--5--5--5--3--1--5--
E|--3--3--3--1--1-----3--3--3------------3--3--3--1--1--------------1--1--3--3--3--3--1-----3--



E|--------------------------------------------5--6--5--5--5--6--3--5--
B|------11------11------11------11-----6--8v--6--6--6--5--6--6--4--6--
G|--10------10------10------10------5-----7---7--7--7--6--7--7--5--7--
D|--------------------------------------------7--8--7--7--7--8--5--7--
A|--------------------------------------------5--8--5--7--5--8--3--5--
E|-----------------------------------------------6-----5-----6--------
http://www.guitartabcreator.com
Guitar Tab Creator is intended to store guitar tab created through the tool. It currently does not support in-line text editing. Any text you place in here will be lost. If you need to comment on your tab, please use the "Tab Notes" section located below.