Knockin on heavens door solo 1 G and R

(/) Slide Up  (\) Slide Down  (h) Hammer On  (p) Pull Off  (b) Bend (r) Release (v) Vibrato

E|---------------------------------------------------------------------------------------
B|---------------------15-----------------------15b17--15v--13p12h13b15b13p12h13p12------
G|--12--16b14--12--14------16b14--12--12--9/12-------------------------------------------
D|-----------------------------------------------------------------------------------14--
A|---------------------------------------------------------------------------------------
E|---------------------------------------------------------------------------------------



E|---------15----------------15--17b19b17v--15--17b19--17b19--15v--20b21--20p19--20p19-----
B|--12h13------13p12--15/17----------------------------------------------------------------
G|-----------------------------------------------------------------------------------------
D|-----------------------------------------------------------------------------------------
A|-----------------------------------------------------------------------------------------
E|-----------------------------------------------------------------------------------------



E|--20b21--20--19----------------------------------------------
B|-----------------17--15b17b15b17b15--------------------------
G|-------------------------------------14b16b14b16b14--12--12--
D|-------------------------------------------------------------
A|-------------------------------------------------------------
E|-------------------------------------------------------------
http://www.guitartabcreator.com
Guitar Tab Creator is intended to store guitar tab created through the tool. It currently does not support in-line text editing. Any text you place in here will be lost. If you need to comment on your tab, please use the "Tab Notes" section located below.