I'm So Sick - Flyleaf

(/) Slide Up  (\) Slide Down  (h) Hammer On  (p) Pull Off  (b) Bend (r) Release (v) Vibrato
E|----------------------------------
B|----------------------------------
G|--13--12------15--13--12--15------
D|----------14------------------14--
A|----------------------------------
E|----------------------------------



E|----------------------------------------
B|--15--13--13---------15--13--13---------
G|--------------12/11--------------12/11--
D|----------------------------------------
A|----------------------------------------
E|----------------------------------------
http://www.guitartabcreator.com
Guitar Tab Creator is intended to store guitar tab created through the tool. It currently does not support in-line text editing. Any text you place in here will be lost. If you need to comment on your tab, please use the "Tab Notes" section located below.