Gravedigger - Dave Matthews

(/) Slide Up  (\) Slide Down  (h) Hammer On  (p) Pull Off  (b) Bend (r) Release (v) Vibrato

(W|WW) Whole (H|HH) Half (Q|QQ) Quarter (E|EE) 8th (S|SS) 16th (T|TT) 32nd (X|XX) 64th


E|--0--0--0--0--0--0--0--0--1--1--1--1--0--0--0--0--
B|--0--0--1--1--0--0--0--0--1--1--1--1--1--1--1--1--
G|--2--2--2--2--2--2--2--2--2--2--2--2--2--2--2--2--
D|--2--2--2--2--2--2--2--2--3--3--3--3--2--2--2--2--
A|--0--0--0--0--0--0--0--0--3--3--3--3--0--0--0--0--
E|--------------3--3--3--3--1--1--1--1--------------


t: none none none none none none none none none none none none none none none none none
E|--0--0--0--0--0--0--0--0--0--0--0--0--0--0--0--------
B|--0--0--1--1--0--0--0--0--0--0--0--0--1--1--0--3--3--
G|--2--2--2--2--2--2--2--2--1--1--1--1--2--2--2--2--2--
D|--2--2--2--2--2--2--2--2--2--2--2--2--2--2--2--0--0--
A|--0--0--0--0--0--0--0--0--2--2--2--2--0--0--0--0--0--
E|--------------3--3--3--3--0--0--0--0--------3--2--2--


t: none none none none none none none none none none none none none none none none
E|--1--1--1--1--1--1--1--1--0--0--0--0--3--3--------
B|--3--3--3--3--1--1--1--1--1--1--1--1--0--0--------
G|--2--2--2--2--2--2--2--2--0--0--0--0--0--0--3--3--
D|-----0--0--0--3--3--3--3--2--2--2--2--0--0--3--3--
A|--------------3--3--3--3--3--3--3--3--2--2--1--1--
E|--------------1--1--1--1--------------3--3--------
http://www.guitartabcreator.com
Guitar Tab Creator is intended to store guitar tab created through the tool. It currently does not support in-line text editing. Any text you place in here will be lost. If you need to comment on your tab, please use the "Tab Notes" section located below.